ISO-10303-21;
HEADER;
/* Generated by software containing ST-Developer
 * from STEP Tools, Inc. (www.steptools.com) 
 */

FILE_DESCRIPTION(
/* description */ (''),
/* implementation_level */ '2;1');

FILE_NAME(
/* name */ 
'D:\\SFC\\3-Autodesk\\2014-01-30 GrabCAD\\11 - Piesele din album\\Part
 007.stp',
/* time_stamp */ '2015-02-19T14:27:19+02:00',
/* author */ ('SFC'),
/* organization */ (''),
/* preprocessor_version */ 'ST-DEVELOPER v15.2',
/* originating_system */ 'Autodesk Inventor 2014',
/* authorisation */ '');

FILE_SCHEMA (('AUTOMOTIVE_DESIGN { 1 0 10303 214 3 1 1 }'));
ENDSEC;

DATA;
#10=MECHANICAL_DESIGN_GEOMETRIC_PRESENTATION_REPRESENTATION('',(#13),#572);
#11=SHAPE_REPRESENTATION_RELATIONSHIP('SRR','None',#581,#12);
#12=ADVANCED_BREP_SHAPE_REPRESENTATION($,(#304),#571);
#13=STYLED_ITEM('',(#590),#304);
#14=CONICAL_SURFACE('',#327,21.25,60.);
#15=CONICAL_SURFACE('',#335,25.3535533905933,45.);
#16=CONICAL_SURFACE('',#337,24.6464466094067,45.0000000000002);
#17=CONICAL_SURFACE('',#339,24.6464466094067,44.9999999999998);
#18=CONICAL_SURFACE('',#347,24.55,44.9999999999999);
#19=CONICAL_SURFACE('',#351,19.5,45.0000000000001);
#20=FACE_BOUND('',#63,.T.);
#21=FACE_BOUND('',#64,.T.);
#22=FACE_BOUND('',#70,.T.);
#23=FACE_BOUND('',#74,.T.);
#24=FACE_BOUND('',#76,.T.);
#25=FACE_BOUND('',#78,.T.);
#26=FACE_BOUND('',#80,.T.);
#27=FACE_BOUND('',#82,.T.);
#28=FACE_BOUND('',#83,.T.);
#29=FACE_BOUND('',#84,.T.);
#30=FACE_BOUND('',#86,.T.);
#31=FACE_BOUND('',#88,.T.);
#32=FACE_BOUND('',#89,.T.);
#33=FACE_BOUND('',#90,.T.);
#34=FACE_BOUND('',#92,.T.);
#35=FACE_BOUND('',#94,.T.);
#36=PLANE('',#315);
#37=PLANE('',#319);
#38=PLANE('',#329);
#39=PLANE('',#333);
#40=PLANE('',#343);
#41=PLANE('',#349);
#42=TOROIDAL_SURFACE('',#312,29.5,3.00000000000001);
#43=FACE_OUTER_BOUND('',#61,.T.);
#44=FACE_OUTER_BOUND('',#62,.T.);
#45=FACE_OUTER_BOUND('',#65,.T.);
#46=FACE_OUTER_BOUND('',#66,.T.);
#47=FACE_OUTER_BOUND('',#67,.T.);
#48=FACE_OUTER_BOUND('',#68,.T.);
#49=FACE_OUTER_BOUND('',#69,.T.);
#50=FACE_OUTER_BOUND('',#71,.T.);
#51=FACE_OUTER_BOUND('',#72,.T.);
#52=FACE_OUTER_BOUND('',#73,.T.);
#53=FACE_OUTER_BOUND('',#75,.T.);
#54=FACE_OUTER_BOUND('',#77,.T.);
#55=FACE_OUTER_BOUND('',#79,.T.);
#56=FACE_OUTER_BOUND('',#81,.T.);
#57=FACE_OUTER_BOUND('',#85,.T.);
#58=FACE_OUTER_BOUND('',#87,.T.);
#59=FACE_OUTER_BOUND('',#91,.T.);
#60=FACE_OUTER_BOUND('',#93,.T.);
#61=EDGE_LOOP('',(#202,#203,#204,#205,#206,#207,#208,#209,#210,#211,#212));
#62=EDGE_LOOP('',(#213,#214,#215,#216));
#63=EDGE_LOOP('',(#217));
#64=EDGE_LOOP('',(#218,#219,#220,#221));
#65=EDGE_LOOP('',(#222,#223,#224,#225));
#66=EDGE_LOOP('',(#226,#227,#228,#229,#230,#231));
#67=EDGE_LOOP('',(#232,#233,#234,#235,#236));
#68=EDGE_LOOP('',(#237,#238,#239,#240));
#69=EDGE_LOOP('',(#241));
#70=EDGE_LOOP('',(#242));
#71=EDGE_LOOP('',(#243,#244,#245,#246));
#72=EDGE_LOOP('',(#247,#248,#249,#250));
#73=EDGE_LOOP('',(#251,#252));
#74=EDGE_LOOP('',(#253));
#75=EDGE_LOOP('',(#254));
#76=EDGE_LOOP('',(#255));
#77=EDGE_LOOP('',(#256));
#78=EDGE_LOOP('',(#257));
#79=EDGE_LOOP('',(#258));
#80=EDGE_LOOP('',(#259));
#81=EDGE_LOOP('',(#260));
#82=EDGE_LOOP('',(#261));
#83=EDGE_LOOP('',(#262));
#84=EDGE_LOOP('',(#263));
#85=EDGE_LOOP('',(#264));
#86=EDGE_LOOP('',(#265));
#87=EDGE_LOOP('',(#266));
#88=EDGE_LOOP('',(#267));
#89=EDGE_LOOP('',(#268));
#90=EDGE_LOOP('',(#269));
#91=EDGE_LOOP('',(#270));
#92=EDGE_LOOP('',(#271));
#93=EDGE_LOOP('',(#272));
#94=EDGE_LOOP('',(#273));
#95=B_SPLINE_CURVE_WITH_KNOTS('',3,(#471,#472,#473,#474,#475,#476,#477,
#478,#479,#480,#481,#482,#483,#484),.UNSPECIFIED.,.F.,.F.,(4,2,2,2,2,2,
4),(-1.41258773551972,-1.3523463274784,-1.29098624878244,-1.1878051815818,
-1.06496227473692,-0.900675261361356,-0.892552798826787),.UNSPECIFIED.);
#96=B_SPLINE_CURVE_WITH_KNOTS('',3,(#500,#501,#502,#503,#504,#505,#506,
#507,#508,#509,#510,#511),.UNSPECIFIED.,.F.,.F.,(4,2,2,2,2,4),(-0.546309399520883,
-0.43386499252624,-0.308754516489203,-0.198638697009523,-0.0965494414135141,
0.),.UNSPECIFIED.);
#97=CIRCLE('',#307,10.5);
#98=CIRCLE('',#308,10.5);
#99=CIRCLE('',#309,10.5);
#100=CIRCLE('',#310,10.5);
#101=CIRCLE('',#311,10.5);
#102=CIRCLE('',#313,29.5);
#103=CIRCLE('',#314,32.5);
#104=CIRCLE('',#316,23.5);
#105=CIRCLE('',#317,29.);
#106=CIRCLE('',#318,10.5);
#107=CIRCLE('',#320,32.5);
#108=CIRCLE('',#321,10.5);
#109=CIRCLE('',#322,29.);
#110=CIRCLE('',#324,32.5);
#111=CIRCLE('',#328,19.);
#112=CIRCLE('',#330,30.);
#113=CIRCLE('',#332,30.);
#114=CIRCLE('',#334,25.7071067811866);
#115=CIRCLE('',#336,25.);
#116=CIRCLE('',#338,24.2928932188134);
#117=CIRCLE('',#340,25.);
#118=CIRCLE('',#342,25.);
#119=CIRCLE('',#344,24.8);
#120=CIRCLE('',#346,24.8);
#121=CIRCLE('',#348,24.3);
#122=CIRCLE('',#350,20.);
#123=CIRCLE('',#352,19.);
#124=LINE('',#463,#131);
#125=LINE('',#467,#132);
#126=LINE('',#486,#133);
#127=LINE('',#490,#134);
#128=LINE('',#494,#135);
#129=LINE('',#526,#136);
#130=LINE('',#529,#137);
#131=VECTOR('',#358,3.);
#132=VECTOR('',#361,11.);
#133=VECTOR('',#364,11.);
#134=VECTOR('',#367,2.);
#135=VECTOR('',#370,2.);
#136=VECTOR('',#397,8.00000000000001);
#137=VECTOR('',#402,11.);
#138=VERTEX_POINT('',#461);
#139=VERTEX_POINT('',#462);
#140=VERTEX_POINT('',#464);
#141=VERTEX_POINT('',#466);
#142=VERTEX_POINT('',#468);
#143=VERTEX_POINT('',#470);
#144=VERTEX_POINT('',#485);
#145=VERTEX_POINT('',#487);
#146=VERTEX_POINT('',#489);
#147=VERTEX_POINT('',#491);
#148=VERTEX_POINT('',#493);
#149=VERTEX_POINT('',#497);
#150=VERTEX_POINT('',#499);
#151=VERTEX_POINT('',#514);
#152=VERTEX_POINT('',#516);
#153=VERTEX_POINT('',#520);
#154=VERTEX_POINT('',#522);
#155=VERTEX_POINT('',#532);
#156=VERTEX_POINT('',#539);
#157=VERTEX_POINT('',#542);
#158=VERTEX_POINT('',#545);
#159=VERTEX_POINT('',#548);
#160=VERTEX_POINT('',#551);
#161=VERTEX_POINT('',#554);
#162=VERTEX_POINT('',#557);
#163=VERTEX_POINT('',#560);
#164=VERTEX_POINT('',#563);
#165=VERTEX_POINT('',#566);
#166=EDGE_CURVE('',#138,#139,#124,.T.);
#167=EDGE_CURVE('',#140,#138,#97,.T.);
#168=EDGE_CURVE('',#140,#141,#125,.T.);
#169=EDGE_CURVE('',#142,#141,#98,.T.);
#170=EDGE_CURVE('',#143,#142,#95,.T.);
#171=EDGE_CURVE('',#144,#143,#126,.T.);
#172=EDGE_CURVE('',#145,#144,#99,.T.);
#173=EDGE_CURVE('',#146,#145,#127,.T.);
#174=EDGE_CURVE('',#147,#146,#100,.T.);
#175=EDGE_CURVE('',#148,#147,#128,.T.);
#176=EDGE_CURVE('',#139,#148,#101,.T.);
#177=EDGE_CURVE('',#142,#149,#102,.T.);
#178=EDGE_CURVE('',#149,#150,#96,.T.);
#179=EDGE_CURVE('',#143,#150,#103,.T.);
#180=EDGE_CURVE('',#151,#151,#104,.T.);
#181=EDGE_CURVE('',#141,#152,#105,.T.);
#182=EDGE_CURVE('',#152,#149,#106,.T.);
#183=EDGE_CURVE('',#153,#138,#107,.T.);
#184=EDGE_CURVE('',#153,#154,#108,.T.);
#185=EDGE_CURVE('',#154,#140,#109,.T.);
#186=EDGE_CURVE('',#150,#153,#129,.T.);
#187=EDGE_CURVE('',#144,#139,#110,.T.);
#188=EDGE_CURVE('',#154,#152,#130,.T.);
#189=EDGE_CURVE('',#155,#155,#111,.T.);
#190=EDGE_CURVE('',#145,#148,#112,.T.);
#191=EDGE_CURVE('',#146,#147,#113,.T.);
#192=EDGE_CURVE('',#156,#156,#114,.T.);
#193=EDGE_CURVE('',#157,#157,#115,.T.);
#194=EDGE_CURVE('',#158,#158,#116,.T.);
#195=EDGE_CURVE('',#159,#159,#117,.T.);
#196=EDGE_CURVE('',#160,#160,#118,.T.);
#197=EDGE_CURVE('',#161,#161,#119,.T.);
#198=EDGE_CURVE('',#162,#162,#120,.T.);
#199=EDGE_CURVE('',#163,#163,#121,.T.);
#200=EDGE_CURVE('',#164,#164,#122,.T.);
#201=EDGE_CURVE('',#165,#165,#123,.T.);
#202=ORIENTED_EDGE('',*,*,#166,.F.);
#203=ORIENTED_EDGE('',*,*,#167,.F.);
#204=ORIENTED_EDGE('',*,*,#168,.T.);
#205=ORIENTED_EDGE('',*,*,#169,.F.);
#206=ORIENTED_EDGE('',*,*,#170,.F.);
#207=ORIENTED_EDGE('',*,*,#171,.F.);
#208=ORIENTED_EDGE('',*,*,#172,.F.);
#209=ORIENTED_EDGE('',*,*,#173,.F.);
#210=ORIENTED_EDGE('',*,*,#174,.F.);
#211=ORIENTED_EDGE('',*,*,#175,.F.);
#212=ORIENTED_EDGE('',*,*,#176,.F.);
#213=ORIENTED_EDGE('',*,*,#170,.T.);
#214=ORIENTED_EDGE('',*,*,#177,.T.);
#215=ORIENTED_EDGE('',*,*,#178,.T.);
#216=ORIENTED_EDGE('',*,*,#179,.F.);
#217=ORIENTED_EDGE('',*,*,#180,.T.);
#218=ORIENTED_EDGE('',*,*,#169,.T.);
#219=ORIENTED_EDGE('',*,*,#181,.T.);
#220=ORIENTED_EDGE('',*,*,#182,.T.);
#221=ORIENTED_EDGE('',*,*,#177,.F.);
#222=ORIENTED_EDGE('',*,*,#167,.T.);
#223=ORIENTED_EDGE('',*,*,#183,.F.);
#224=ORIENTED_EDGE('',*,*,#184,.T.);
#225=ORIENTED_EDGE('',*,*,#185,.T.);
#226=ORIENTED_EDGE('',*,*,#171,.T.);
#227=ORIENTED_EDGE('',*,*,#179,.T.);
#228=ORIENTED_EDGE('',*,*,#186,.T.);
#229=ORIENTED_EDGE('',*,*,#183,.T.);
#230=ORIENTED_EDGE('',*,*,#166,.T.);
#231=ORIENTED_EDGE('',*,*,#187,.F.);
#232=ORIENTED_EDGE('',*,*,#186,.F.);
#233=ORIENTED_EDGE('',*,*,#178,.F.);
#234=ORIENTED_EDGE('',*,*,#182,.F.);
#235=ORIENTED_EDGE('',*,*,#188,.F.);
#236=ORIENTED_EDGE('',*,*,#184,.F.);
#237=ORIENTED_EDGE('',*,*,#181,.F.);
#238=ORIENTED_EDGE('',*,*,#168,.F.);
#239=ORIENTED_EDGE('',*,*,#185,.F.);
#240=ORIENTED_EDGE('',*,*,#188,.T.);
#241=ORIENTED_EDGE('',*,*,#180,.F.);
#242=ORIENTED_EDGE('',*,*,#189,.T.);
#243=ORIENTED_EDGE('',*,*,#172,.T.);
#244=ORIENTED_EDGE('',*,*,#187,.T.);
#245=ORIENTED_EDGE('',*,*,#176,.T.);
#246=ORIENTED_EDGE('',*,*,#190,.F.);
#247=ORIENTED_EDGE('',*,*,#173,.T.);
#248=ORIENTED_EDGE('',*,*,#190,.T.);
#249=ORIENTED_EDGE('',*,*,#175,.T.);
#250=ORIENTED_EDGE('',*,*,#191,.F.);
#251=ORIENTED_EDGE('',*,*,#174,.T.);
#252=ORIENTED_EDGE('',*,*,#191,.T.);
#253=ORIENTED_EDGE('',*,*,#192,.F.);
#254=ORIENTED_EDGE('',*,*,#193,.F.);
#255=ORIENTED_EDGE('',*,*,#192,.T.);
#256=ORIENTED_EDGE('',*,*,#194,.F.);
#257=ORIENTED_EDGE('',*,*,#193,.T.);
#258=ORIENTED_EDGE('',*,*,#195,.F.);
#259=ORIENTED_EDGE('',*,*,#194,.T.);
#260=ORIENTED_EDGE('',*,*,#196,.F.);
#261=ORIENTED_EDGE('',*,*,#195,.T.);
#262=ORIENTED_EDGE('',*,*,#197,.F.);
#263=ORIENTED_EDGE('',*,*,#196,.T.);
#264=ORIENTED_EDGE('',*,*,#198,.F.);
#265=ORIENTED_EDGE('',*,*,#197,.T.);
#266=ORIENTED_EDGE('',*,*,#199,.F.);
#267=ORIENTED_EDGE('',*,*,#198,.T.);
#268=ORIENTED_EDGE('',*,*,#200,.F.);
#269=ORIENTED_EDGE('',*,*,#199,.T.);
#270=ORIENTED_EDGE('',*,*,#201,.F.);
#271=ORIENTED_EDGE('',*,*,#200,.T.);
#272=ORIENTED_EDGE('',*,*,#189,.F.);
#273=ORIENTED_EDGE('',*,*,#201,.T.);
#274=CYLINDRICAL_SURFACE('',#306,10.5);
#275=CYLINDRICAL_SURFACE('',#323,32.5);
#276=CYLINDRICAL_SURFACE('',#325,10.5);
#277=CYLINDRICAL_SURFACE('',#326,29.);
#278=CYLINDRICAL_SURFACE('',#331,30.);
#279=CYLINDRICAL_SURFACE('',#341,25.);
#280=CYLINDRICAL_SURFACE('',#345,24.8);
#281=CYLINDRICAL_SURFACE('',#353,19.);
#282=ADVANCED_FACE('',(#43),#274,.F.);
#283=ADVANCED_FACE('',(#44),#42,.T.);
#284=ADVANCED_FACE('',(#20,#21),#36,.T.);
#285=ADVANCED_FACE('',(#45),#37,.F.);
#286=ADVANCED_FACE('',(#46),#275,.T.);
#287=ADVANCED_FACE('',(#47),#276,.F.);
#288=ADVANCED_FACE('',(#48),#277,.T.);
#289=ADVANCED_FACE('',(#49,#22),#14,.F.);
#290=ADVANCED_FACE('',(#50),#38,.T.);
#291=ADVANCED_FACE('',(#51),#278,.T.);
#292=ADVANCED_FACE('',(#52,#23),#39,.T.);
#293=ADVANCED_FACE('',(#53,#24),#15,.F.);
#294=ADVANCED_FACE('',(#54,#25),#16,.T.);
#295=ADVANCED_FACE('',(#55,#26),#17,.T.);
#296=ADVANCED_FACE('',(#56,#27),#279,.T.);
#297=ADVANCED_FACE('',(#28,#29),#40,.T.);
#298=ADVANCED_FACE('',(#57,#30),#280,.T.);
#299=ADVANCED_FACE('',(#58,#31),#18,.T.);
#300=ADVANCED_FACE('',(#32,#33),#41,.T.);
#301=ADVANCED_FACE('',(#59,#34),#19,.F.);
#302=ADVANCED_FACE('',(#60,#35),#281,.F.);
#303=CLOSED_SHELL('',(#282,#283,#284,#285,#286,#287,#288,#289,#290,#291,
#292,#293,#294,#295,#296,#297,#298,#299,#300,#301,#302));
#304=MANIFOLD_SOLID_BREP('Solid1',#303);
#305=AXIS2_PLACEMENT_3D('placement',#459,#354,#355);
#306=AXIS2_PLACEMENT_3D('',#460,#356,#357);
#307=AXIS2_PLACEMENT_3D('',#465,#359,#360);
#308=AXIS2_PLACEMENT_3D('',#469,#362,#363);
#309=AXIS2_PLACEMENT_3D('',#488,#365,#366);
#310=AXIS2_PLACEMENT_3D('',#492,#368,#369);
#311=AXIS2_PLACEMENT_3D('',#495,#371,#372);
#312=AXIS2_PLACEMENT_3D('',#496,#373,#374);
#313=AXIS2_PLACEMENT_3D('',#498,#375,#376);
#314=AXIS2_PLACEMENT_3D('',#512,#377,#378);
#315=AXIS2_PLACEMENT_3D('',#513,#379,#380);
#316=AXIS2_PLACEMENT_3D('',#515,#381,#382);
#317=AXIS2_PLACEMENT_3D('',#517,#383,#384);
#318=AXIS2_PLACEMENT_3D('',#518,#385,#386);
#319=AXIS2_PLACEMENT_3D('',#519,#387,#388);
#320=AXIS2_PLACEMENT_3D('',#521,#389,#390);
#321=AXIS2_PLACEMENT_3D('',#523,#391,#392);
#322=AXIS2_PLACEMENT_3D('',#524,#393,#394);
#323=AXIS2_PLACEMENT_3D('',#525,#395,#396);
#324=AXIS2_PLACEMENT_3D('',#527,#398,#399);
#325=AXIS2_PLACEMENT_3D('',#528,#400,#401);
#326=AXIS2_PLACEMENT_3D('',#530,#403,#404);
#327=AXIS2_PLACEMENT_3D('',#531,#405,#406);
#328=AXIS2_PLACEMENT_3D('',#533,#407,#408);
#329=AXIS2_PLACEMENT_3D('',#534,#409,#410);
#330=AXIS2_PLACEMENT_3D('',#535,#411,#412);
#331=AXIS2_PLACEMENT_3D('',#536,#413,#414);
#332=AXIS2_PLACEMENT_3D('',#537,#415,#416);
#333=AXIS2_PLACEMENT_3D('',#538,#417,#418);
#334=AXIS2_PLACEMENT_3D('',#540,#419,#420);
#335=AXIS2_PLACEMENT_3D('',#541,#421,#422);
#336=AXIS2_PLACEMENT_3D('',#543,#423,#424);
#337=AXIS2_PLACEMENT_3D('',#544,#425,#426);
#338=AXIS2_PLACEMENT_3D('',#546,#427,#428);
#339=AXIS2_PLACEMENT_3D('',#547,#429,#430);
#340=AXIS2_PLACEMENT_3D('',#549,#431,#432);
#341=AXIS2_PLACEMENT_3D('',#550,#433,#434);
#342=AXIS2_PLACEMENT_3D('',#552,#435,#436);
#343=AXIS2_PLACEMENT_3D('',#553,#437,#438);
#344=AXIS2_PLACEMENT_3D('',#555,#439,#440);
#345=AXIS2_PLACEMENT_3D('',#556,#441,#442);
#346=AXIS2_PLACEMENT_3D('',#558,#443,#444);
#347=AXIS2_PLACEMENT_3D('',#559,#445,#446);
#348=AXIS2_PLACEMENT_3D('',#561,#447,#448);
#349=AXIS2_PLACEMENT_3D('',#562,#449,#450);
#350=AXIS2_PLACEMENT_3D('',#564,#451,#452);
#351=AXIS2_PLACEMENT_3D('',#565,#453,#454);
#352=AXIS2_PLACEMENT_3D('',#567,#455,#456);
#353=AXIS2_PLACEMENT_3D('',#568,#457,#458);
#354=DIRECTION('axis',(0.,0.,1.));
#355=DIRECTION('refdir',(1.,0.,0.));
#356=DIRECTION('center_axis',(7.74788029737372E-016,-4.47324077533771E-016,
1.));
#357=DIRECTION('ref_axis',(-0.866025403784348,0.500000000000157,0.));
#358=DIRECTION('',(-7.74788029737372E-016,4.47324077533771E-016,-1.));
#359=DIRECTION('center_axis',(0.,0.,-1.));
#360=DIRECTION('ref_axis',(-0.866025403784348,0.500000000000157,0.));
#361=DIRECTION('',(4.80740671595891E-016,-2.77555756156289E-016,1.));
#362=DIRECTION('center_axis',(0.,0.,-1.));
#363=DIRECTION('ref_axis',(-0.866025403784348,0.500000000000157,0.));
#364=DIRECTION('',(7.74788029737372E-016,-4.47324077533771E-016,1.));
#365=DIRECTION('center_axis',(0.,0.,1.));
#366=DIRECTION('ref_axis',(-0.866025403784348,0.500000000000157,0.));
#367=DIRECTION('',(7.74788029737372E-016,-4.47324077533771E-016,1.));
#368=DIRECTION('center_axis',(0.,0.,1.));
#369=DIRECTION('ref_axis',(-0.866025403784348,0.500000000000157,0.));
#370=DIRECTION('',(-7.74788029737372E-016,4.47324077533771E-016,-1.));
#371=DIRECTION('center_axis',(0.,0.,1.));
#372=DIRECTION('ref_axis',(-0.866025403784348,0.500000000000157,0.));
#373=DIRECTION('center_axis',(0.,0.,-1.));
#374=DIRECTION('ref_axis',(-1.,0.,0.));
#375=DIRECTION('center_axis',(0.,0.,-1.));
#376=DIRECTION('ref_axis',(-1.,0.,0.));
#377=DIRECTION('center_axis',(0.,0.,-1.));
#378=DIRECTION('ref_axis',(-1.,0.,0.));
#379=DIRECTION('center_axis',(0.,0.,1.));
#380=DIRECTION('ref_axis',(1.,0.,0.));
#381=DIRECTION('center_axis',(0.,0.,-1.));
#382=DIRECTION('ref_axis',(-1.,0.,0.));
#383=DIRECTION('center_axis',(0.,0.,1.));
#384=DIRECTION('ref_axis',(1.,0.,0.));
#385=DIRECTION('center_axis',(0.,0.,-1.));
#386=DIRECTION('ref_axis',(-1.,0.,0.));
#387=DIRECTION('center_axis',(0.,0.,-1.));
#388=DIRECTION('ref_axis',(-1.,0.,0.));
#389=DIRECTION('center_axis',(0.,0.,-1.));
#390=DIRECTION('ref_axis',(-1.,0.,0.));
#391=DIRECTION('center_axis',(0.,0.,1.));
#392=DIRECTION('ref_axis',(-1.,0.,0.));
#393=DIRECTION('center_axis',(0.,0.,-1.));
#394=DIRECTION('ref_axis',(1.,0.,0.));
#395=DIRECTION('center_axis',(0.,0.,-1.));
#396=DIRECTION('ref_axis',(-1.,0.,0.));
#397=DIRECTION('',(0.,0.,-1.));
#398=DIRECTION('center_axis',(0.,0.,-1.));
#399=DIRECTION('ref_axis',(-1.,0.,0.));
#400=DIRECTION('center_axis',(0.,0.,1.));
#401=DIRECTION('ref_axis',(-1.,0.,0.));
#402=DIRECTION('',(5.55111512312578E-016,0.,1.));
#403=DIRECTION('center_axis',(0.,0.,-1.));
#404=DIRECTION('ref_axis',(1.,0.,0.));
#405=DIRECTION('center_axis',(0.,0.,1.));
#406=DIRECTION('ref_axis',(-1.,0.,0.));
#407=DIRECTION('center_axis',(0.,0.,-1.));
#408=DIRECTION('ref_axis',(-1.,0.,0.));
#409=DIRECTION('center_axis',(0.,0.,-1.));
#410=DIRECTION('ref_axis',(-1.,0.,0.));
#411=DIRECTION('center_axis',(0.,0.,-1.));
#412=DIRECTION('ref_axis',(-1.,0.,0.));
#413=DIRECTION('center_axis',(0.,0.,-1.));
#414=DIRECTION('ref_axis',(-1.,0.,0.));
#415=DIRECTION('center_axis',(0.,0.,-1.));
#416=DIRECTION('ref_axis',(-1.,0.,0.));
#417=DIRECTION('center_axis',(0.,0.,-1.));
#418=DIRECTION('ref_axis',(-1.,0.,0.));
#419=DIRECTION('center_axis',(0.,0.,-1.));
#420=DIRECTION('ref_axis',(-1.,0.,0.));
#421=DIRECTION('center_axis',(0.,0.,-1.));
#422=DIRECTION('ref_axis',(-1.,0.,0.));
#423=DIRECTION('center_axis',(0.,0.,-1.));
#424=DIRECTION('ref_axis',(-1.,0.,0.));
#425=DIRECTION('center_axis',(0.,0.,1.));
#426=DIRECTION('ref_axis',(-1.,0.,0.));
#427=DIRECTION('center_axis',(0.,0.,-1.));
#428=DIRECTION('ref_axis',(-1.,0.,0.));
#429=DIRECTION('center_axis',(0.,0.,-1.));
#430=DIRECTION('ref_axis',(-1.,0.,0.));
#431=DIRECTION('center_axis',(0.,0.,-1.));
#432=DIRECTION('ref_axis',(-1.,0.,0.));
#433=DIRECTION('center_axis',(0.,0.,-1.));
#434=DIRECTION('ref_axis',(-1.,0.,0.));
#435=DIRECTION('center_axis',(0.,0.,-1.));
#436=DIRECTION('ref_axis',(-1.,0.,0.));
#437=DIRECTION('center_axis',(0.,0.,-1.));
#438=DIRECTION('ref_axis',(-1.,0.,0.));
#439=DIRECTION('center_axis',(0.,0.,-1.));
#440=DIRECTION('ref_axis',(-1.,0.,0.));
#441=DIRECTION('center_axis',(0.,0.,-1.));
#442=DIRECTION('ref_axis',(-1.,0.,0.));
#443=DIRECTION('center_axis',(0.,0.,-1.));
#444=DIRECTION('ref_axis',(-1.,0.,0.));
#445=DIRECTION('center_axis',(0.,0.,1.));
#446=DIRECTION('ref_axis',(-1.,0.,0.));
#447=DIRECTION('center_axis',(0.,0.,-1.));
#448=DIRECTION('ref_axis',(-1.,0.,0.));
#449=DIRECTION('center_axis',(0.,0.,-1.));
#450=DIRECTION('ref_axis',(-1.,0.,0.));
#451=DIRECTION('center_axis',(0.,0.,-1.));
#452=DIRECTION('ref_axis',(-1.,0.,0.));
#453=DIRECTION('center_axis',(0.,0.,-1.));
#454=DIRECTION('ref_axis',(-1.,0.,0.));
#455=DIRECTION('center_axis',(0.,0.,-1.));
#456=DIRECTION('ref_axis',(-1.,0.,0.));
#457=DIRECTION('center_axis',(0.,0.,-1.));
#458=DIRECTION('ref_axis',(-1.,0.,0.));
#459=CARTESIAN_POINT('',(0.,0.,0.));
#460=CARTESIAN_POINT('Origin',(34.2080034494853,-19.75,48.));
#461=CARTESIAN_POINT('',(31.0026411502302,-9.75121744758323,45.));
#462=CARTESIAN_POINT('',(31.0026411502302,-9.75121744758323,42.));
#463=CARTESIAN_POINT('',(31.0026411502302,-9.75121744758324,48.));
#464=CARTESIAN_POINT('',(25.1147367097487,-14.5,45.));
#465=CARTESIAN_POINT('Origin',(34.2080034494853,-19.75,45.));
#466=CARTESIAN_POINT('',(25.1147367097487,-14.5,56.));
#467=CARTESIAN_POINT('',(25.1147367097487,-14.5,45.));
#468=CARTESIAN_POINT('',(24.0535180460826,-17.078590972524,56.));
#469=CARTESIAN_POINT('Origin',(34.2080034494853,-19.75,56.));
#470=CARTESIAN_POINT('',(23.9461226025483,-21.9734660967205,53.));
#471=CARTESIAN_POINT('Ctrl Pts',(23.9461226025482,-21.9734660967206,53.));
#472=CARTESIAN_POINT('Ctrl Pts',(23.9461226025482,-21.9734660967206,53.2194648619906));
#473=CARTESIAN_POINT('Ctrl Pts',(23.939765170882,-21.9446825572259,53.4374955420556));
#474=CARTESIAN_POINT('Ctrl Pts',(23.9159794278312,-21.8303163080342,53.8649085785379));
#475=CARTESIAN_POINT('Ctrl Pts',(23.898555905987,-21.7445099711839,54.0710445930811));
#476=CARTESIAN_POINT('Ctrl Pts',(23.8441855907886,-21.446293969754,54.5887077715785));
#477=CARTESIAN_POINT('Ctrl Pts',(23.8034245677015,-21.1940912835386,54.8656048286245));
#478=CARTESIAN_POINT('Ctrl Pts',(23.7315126994103,-20.5384460867459,55.3652473306904));
#479=CARTESIAN_POINT('Ctrl Pts',(23.7001786332646,-20.0972000379151,55.5815505206417));
#480=CARTESIAN_POINT('Ctrl Pts',(23.7223400349236,-18.849732902849,55.9337928106007));
#481=CARTESIAN_POINT('Ctrl Pts',(23.8085874380443,-18.0554964466445,55.9945946350624));
#482=CARTESIAN_POINT('Ctrl Pts',(24.0317081412463,-17.16255067509,55.9998831914878));
#483=CARTESIAN_POINT('Ctrl Pts',(24.042481951751,-17.1205410661444,56.));
#484=CARTESIAN_POINT('Ctrl Pts',(24.0535180460826,-17.078590972524,56.));
#485=CARTESIAN_POINT('',(23.9461226025482,-21.9734660967206,42.));
#486=CARTESIAN_POINT('',(23.9461226025482,-21.9734660967206,48.));
#487=CARTESIAN_POINT('',(23.8169213156463,-18.2415530875064,42.));
#488=CARTESIAN_POINT('Origin',(34.2080034494853,-19.75,41.9999999999999));
#489=CARTESIAN_POINT('',(23.8169213156463,-18.2415530875064,40.));
#490=CARTESIAN_POINT('',(23.8169213156463,-18.2415530875063,48.));
#491=CARTESIAN_POINT('',(27.7061090360861,-11.5052823555316,40.));
#492=CARTESIAN_POINT('Origin',(34.2080034494853,-19.75,39.9999999999999));
#493=CARTESIAN_POINT('',(27.7061090360861,-11.5052823555316,42.));
#494=CARTESIAN_POINT('',(27.7061090360861,-11.5052823555316,48.));
#495=CARTESIAN_POINT('Origin',(34.2080034494853,-19.75,41.9999999999999));
#496=CARTESIAN_POINT('Origin',(0.,0.,53.));
#497=CARTESIAN_POINT('',(29.370253164557,2.76373462000815,56.));
#498=CARTESIAN_POINT('Origin',(0.,0.,56.));
#499=CARTESIAN_POINT('',(31.7246835443038,7.05651854768199,53.));
#500=CARTESIAN_POINT('Ctrl Pts',(29.370253164557,2.76373462000815,56.));
#501=CARTESIAN_POINT('Ctrl Pts',(29.5253990400303,3.33238127288515,56.));
#502=CARTESIAN_POINT('Ctrl Pts',(29.7213213543066,3.86203217410444,55.9784422755734));
#503=CARTESIAN_POINT('Ctrl Pts',(30.1909355900595,4.89363555539178,55.8183550332111));
#504=CARTESIAN_POINT('Ctrl Pts',(30.4479854272461,5.33894008859303,55.673040900731));
#505=CARTESIAN_POINT('Ctrl Pts',(30.897288124859,6.03266533657947,55.2774685381493));
#506=CARTESIAN_POINT('Ctrl Pts',(31.0884003544788,6.2897062643256,55.0468757943532));
#507=CARTESIAN_POINT('Ctrl Pts',(31.393081117209,6.67713194657777,54.5360657580272));
#508=CARTESIAN_POINT('Ctrl Pts',(31.5165352761328,6.82135586898039,54.2524178549435));
#509=CARTESIAN_POINT('Ctrl Pts',(31.6817357401907,7.00996402546059,53.6390168048367));
#510=CARTESIAN_POINT('Ctrl Pts',(31.7246835443038,7.05651854768198,53.3218314713784));
#511=CARTESIAN_POINT('Ctrl Pts',(31.7246835443038,7.05651854768198,53.));
#512=CARTESIAN_POINT('Origin',(0.,0.,53.));
#513=CARTESIAN_POINT('Origin',(-26.5,0.,56.));
#514=CARTESIAN_POINT('',(-23.5,0.,56.));
#515=CARTESIAN_POINT('Origin',(0.,0.,56.));
#516=CARTESIAN_POINT('',(29.,0.,56.));
#517=CARTESIAN_POINT('Origin',(0.,0.,56.));
#518=CARTESIAN_POINT('Origin',(39.5,0.,56.));
#519=CARTESIAN_POINT('Origin',(34.25,0.,45.));
#520=CARTESIAN_POINT('',(31.7246835443038,7.05651854768198,45.));
#521=CARTESIAN_POINT('Origin',(0.,0.,45.));
#522=CARTESIAN_POINT('',(29.,0.,45.));
#523=CARTESIAN_POINT('Origin',(39.5,0.,45.));
#524=CARTESIAN_POINT('Origin',(0.,0.,45.));
#525=CARTESIAN_POINT('Origin',(0.,0.,47.5));
#526=CARTESIAN_POINT('',(31.7246835443038,7.05651854768198,53.));
#527=CARTESIAN_POINT('Origin',(0.,0.,42.));
#528=CARTESIAN_POINT('Origin',(39.5,0.,53.));
#529=CARTESIAN_POINT('',(29.,0.,45.));
#530=CARTESIAN_POINT('Origin',(0.,0.,53.));
#531=CARTESIAN_POINT('Origin',(0.,0.,54.7009618943233));
#532=CARTESIAN_POINT('',(-19.,0.,53.4019237886467));
#533=CARTESIAN_POINT('Origin',(0.,0.,53.4019237886467));
#534=CARTESIAN_POINT('Origin',(-31.25,0.,42.));
#535=CARTESIAN_POINT('Origin',(0.,0.,42.));
#536=CARTESIAN_POINT('Origin',(0.,0.,41.));
#537=CARTESIAN_POINT('Origin',(0.,0.,40.));
#538=CARTESIAN_POINT('Origin',(-27.8535533905933,0.,40.));
#539=CARTESIAN_POINT('',(-25.7071067811866,0.,40.));
#540=CARTESIAN_POINT('Origin',(0.,0.,40.));
#541=CARTESIAN_POINT('Origin',(0.,0.,40.3535533905933));
#542=CARTESIAN_POINT('',(-25.,0.,40.7071067811866));
#543=CARTESIAN_POINT('Origin',(0.,0.,40.7071067811866));
#544=CARTESIAN_POINT('Origin',(0.,0.,40.3535533905933));
#545=CARTESIAN_POINT('',(-24.2928932188134,0.,40.));
#546=CARTESIAN_POINT('Origin',(0.,0.,40.));
#547=CARTESIAN_POINT('Origin',(0.,0.,39.6464466094067));
#548=CARTESIAN_POINT('',(-25.,0.,39.2928932188135));
#549=CARTESIAN_POINT('Origin',(0.,0.,39.2928932188135));
#550=CARTESIAN_POINT('Origin',(0.,0.,21.6464466094067));
#551=CARTESIAN_POINT('',(-25.,0.,4.));
#552=CARTESIAN_POINT('Origin',(0.,0.,4.));
#553=CARTESIAN_POINT('Origin',(-24.9,0.,4.));
#554=CARTESIAN_POINT('',(-24.8,0.,4.));
#555=CARTESIAN_POINT('Origin',(0.,0.,4.));
#556=CARTESIAN_POINT('Origin',(0.,0.,2.25));
#557=CARTESIAN_POINT('',(-24.8,0.,0.499999999999999));
#558=CARTESIAN_POINT('Origin',(0.,0.,0.499999999999998));
#559=CARTESIAN_POINT('Origin',(0.,0.,0.250000000000004));
#560=CARTESIAN_POINT('',(-24.3,0.,-8.63815000909661E-016));
#561=CARTESIAN_POINT('Origin',(0.,0.,0.));
#562=CARTESIAN_POINT('Origin',(-22.15,0.,-1.52204091608919E-015));
#563=CARTESIAN_POINT('',(-20.,0.,-2.18026683126872E-015));
#564=CARTESIAN_POINT('Origin',(0.,0.,0.));
#565=CARTESIAN_POINT('Origin',(0.,0.,0.499999999999998));
#566=CARTESIAN_POINT('',(-19.,0.,0.999999999999997));
#567=CARTESIAN_POINT('Origin',(0.,0.,0.999999999999996));
#568=CARTESIAN_POINT('Origin',(0.,0.,27.2009618943233));
#569=UNCERTAINTY_MEASURE_WITH_UNIT(LENGTH_MEASURE(0.01),#573,
'DISTANCE_ACCURACY_VALUE',
'Maximum model space distance between geometric entities at asserted c
onnectivities');
#570=UNCERTAINTY_MEASURE_WITH_UNIT(LENGTH_MEASURE(1.E-006),#573,
'DISTANCE_ACCURACY_VALUE',
'Maximum model space distance between geometric entities at asserted c
onnectivities');
#571=(
GEOMETRIC_REPRESENTATION_CONTEXT(3)
GLOBAL_UNCERTAINTY_ASSIGNED_CONTEXT((#569))
GLOBAL_UNIT_ASSIGNED_CONTEXT((#573,#576,#574))
REPRESENTATION_CONTEXT('','3D')
);
#572=(
GEOMETRIC_REPRESENTATION_CONTEXT(3)
GLOBAL_UNCERTAINTY_ASSIGNED_CONTEXT((#570))
GLOBAL_UNIT_ASSIGNED_CONTEXT((#573,#576,#574))
REPRESENTATION_CONTEXT('','3D')
);
#573=(
LENGTH_UNIT()
NAMED_UNIT(*)
SI_UNIT(.MILLI.,.METRE.)
);
#574=(
NAMED_UNIT(*)
SI_UNIT($,.STERADIAN.)
SOLID_ANGLE_UNIT()
);
#575=DIMENSIONAL_EXPONENTS(0.,0.,0.,0.,0.,0.,0.);
#576=(
CONVERSION_BASED_UNIT('degree',#578)
NAMED_UNIT(#575)
PLANE_ANGLE_UNIT()
);
#577=(
NAMED_UNIT(*)
PLANE_ANGLE_UNIT()
SI_UNIT($,.RADIAN.)
);
#578=PLANE_ANGLE_MEASURE_WITH_UNIT(PLANE_ANGLE_MEASURE(0.01745329252),#577);
#579=SHAPE_DEFINITION_REPRESENTATION(#580,#581);
#580=PRODUCT_DEFINITION_SHAPE('',$,#583);
#581=SHAPE_REPRESENTATION('',(#305),#571);
#582=PRODUCT_DEFINITION_CONTEXT('part definition',#587,'design');
#583=PRODUCT_DEFINITION('Part 007','Part 007',#584,#582);
#584=PRODUCT_DEFINITION_FORMATION('',$,#589);
#585=PRODUCT_RELATED_PRODUCT_CATEGORY('Part 007','Part 007',(#589));
#586=APPLICATION_PROTOCOL_DEFINITION('international standard',
'automotive_design',2009,#587);
#587=APPLICATION_CONTEXT(
'Core Data for Automotive Mechanical Design Process');
#588=PRODUCT_CONTEXT('part definition',#587,'mechanical');
#589=PRODUCT('Part 007','Part 007',$,(#588));
#590=PRESENTATION_STYLE_ASSIGNMENT((#591));
#591=SURFACE_STYLE_USAGE(.BOTH.,#592);
#592=SURFACE_SIDE_STYLE($,(#593));
#593=SURFACE_STYLE_FILL_AREA(#594);
#594=FILL_AREA_STYLE($,(#595));
#595=FILL_AREA_STYLE_COLOUR($,#596);
#596=COLOUR_RGB('',0.745098039215686,0.737254901960784,0.729411764705882);
ENDSEC;
END-ISO-10303-21;
